Free Bass guitar lessons

Post Your Own Lesson

Page 2 of 5 Previous  1, 2, 3, 4, 5  Next

View previous topic View next topic Go down

Re: Post Your Own Lesson

Post  Cliff em' all on Sat Apr 18, 2009 7:58 am

That was bad! Twisted Evil
avatar
Cliff em' all
A resident.
A resident.


View user profile

Back to top Go down

Re: Post Your Own Lesson

Post  stefk0 on Sat Apr 18, 2009 9:24 am

xXMaliceXx wrote:I will post my next few lesson when my rep reaches 20 Twisted Evil.
To give me a rep point, press the + sign over here -------------------------------------------------------------------------->

That's black mail! I shall never give you rep!

Back to top Go down

Re: Post Your Own Lesson

Post  xXMaliceXx on Sat Apr 18, 2009 12:59 pm

stefk0 wrote:
xXMaliceXx wrote:I will post my next few lesson when my rep reaches 20 Twisted Evil.
To give me a rep point, press the + sign over here -------------------------------------------------------------------------->

That's black mail! I shall never give you rep!

Its not black mail, it doesn't cost u anything. I want to know that people appreciate my lessons.

Took me ages to do the can't stop tab and noone gave me a +, it made me sad Sad

You can also give me rep for my other tabs to make the 20 go faster.

Back to top Go down

Re: Post Your Own Lesson

Post  stefk0 on Sat Apr 18, 2009 2:00 pm

Why would it make you sad? Dman's doing so many videos out of good will, and he's prolly not gonna get much in return. A few people will buy his videos, but I he'll be able to live on the premium vids money alone.

You should be doing these out of good will, like D'man does, and if you're doing em out of good will, you shouldn't be sad if you don't get rep.

Am I right or am I right jocolor ?

Back to top Go down

Re: Post Your Own Lesson

Post  xXMaliceXx on Sat Apr 18, 2009 2:01 pm

Your not right, he gets rep points and I dont

Back to top Go down

Re: Post Your Own Lesson

Post  stefk0 on Sat Apr 18, 2009 2:04 pm

Who gets rep points? D'man? Why would he want rep points on his own forum? We all respect him & love him, even if some idiot / retard makes him have -50 rep

Back to top Go down

Re: Post Your Own Lesson

Post  xXMaliceXx on Tue Apr 21, 2009 7:15 am

I'm gonna put up the next lesson on Friday after school around 9pm (about 12-2pm for England but I'm not sure), and mabe if I get most of my work done, do another on Sunday.
Sorry bout the delay, I fell behind on my school work, but im gettin it back on track.

xXMaliceXx


Last edited by xXMaliceXx on Fri Apr 24, 2009 7:50 am; edited 1 time in total

Back to top Go down

Re: Post Your Own Lesson

Post  Smaz on Tue Apr 21, 2009 4:37 pm

Video + Tab:

"Cornman" by Kinky.

This song featured in Little Big Planet on the PS3, and is great fun to play along to. It's pretty simple with only two riffs, so it should be easy for anyone to pick up Smile

I have a short video on how to play it; my first video lesson, so I messed up in a couple of places lol Very Happy Let me know what you guys think.... Wink

NOTE: It's in Drop D tuning Smile

Vid:


TAB:

Main riff / Chorus:

G||------------------------------------|-------------------------------------||
D||-O-----7-7-5-7----------------------|----7-7-5-7------------------------O-||
A||-O--------------7-7-6---5-5---3-3---|-------------7-7-6--5--5--3--3-----O-||
D||------------------------------------|-------------------------------------||


Verse Riff:

G||---------------------------------||
D||-O-----------------------------O-||
A||-O----------------3-3---5------O-||
D||-------7-7--5-7-----------0------||


Here's the song:

Back to top Go down

Re: Post Your Own Lesson

Post  keizer on Wed Apr 22, 2009 4:06 am

Thanks goes out to Supermaximo for Rumble of the Diesel by Les Claypool. Very Happy Although I am still very new at playin bass and cant slap and pop yet this is going to be a goal to play this rockin song! Thank dude! Very Happy

Back to top Go down

Re: Post Your Own Lesson

Post  xXMaliceXx on Fri Apr 24, 2009 8:19 am

The next song is more to help changing strings and keeping the same rhythm.

Sex on Fire - Kings of Leon

h= hammer on
\ / = slide down then back up, stopping in no particular position

Structure
Start at 0:06

Intro
Verse A
Verse B
Interlude
Chorus
Verse C
Chorus X2
Verse C
Chorus
Bridge
Chorus X2
Outro


Intro

G|---------------------------------------------------------------------------------------------------------------|
D|------------------------------------------------6--6-------------------------------------------6--6---------|
A|--------4--4-\--/-4--4-----4--4-----4--4-------------7--7-----7--7-----7--7-----7--7-----------------|
E|---------------------------------------------------------------------------------------------------------------|


Verse A

G|---------------------------------------------------------------------------------------------------------------|
D|------------------------------------------------6--6-------------------------------------------6--6---------|
A|--------4--4----4--4-----4--4-----4--4-------------7--7-----7--7-----7--7-----7--7-------------------|
E|---------------------------------------------------------------------------------------------------------------|


Verse B

G|------------------------------------------------------|
D|------------------------------------------------6--6-|
A|--------4--4----4--4-----4--4-----4--4------------|
E|-------------------------------------------------------|

G|------------------------------------------------------------------------------------------|
D|------------------------------------------------------------------------------------------|
A|-7-7-7-7-7-7-7-7-7-7-7-7-7-7-7-7-7-7-7-7-7-7-7-7-7-7-7-7-7-7-7-7-------|
E|-------------------------------------------------------------------------------------------|


Interlude (dunno wat else to call it)

G|------------------------------------------------------------------------------------------|
D|------------------------------------------------------------------------------------------|
A|--4-4-4-4-4-4-4-4-4-4-4-4-4-4-4-4-4-4-4-4-4-4-4-4-4-4-4-4-4-4-4-4------|
E|-------------------------------------------------------------------------------------------|


Chorus

G|-----------------------------------------------------------------------------------------------|
D|------------------------------------------6-6-------------------------------------------------|
A|-7-7-7-7-7-7-7-7-7-7-7-7-7-7-7-7-----7-7-7-7-7-7-7-7-7-7-7-7-7-7-7-7--------|
E|-----------------------------------------------------------------------------------------------|

G|-------4-h-6----------------------------------------------------------------------------------------------|
D|--6--------------------------------------------------------------------------------------------------------|
A|----------------4-4-4-4-4-4-4-4-4-4-4-4-4-4-4-4---------------------------------------------------|
E|----------------------------------------------------------5-5-5-5-5-5-5-5-5-5-5-5-5-5-5-5---------|


Verse C

G|---------------------------------------------------------------------------------------------|
D|-----------------------------------------6--6---------------------------------------6--6---|
A|---7--7-----7--7-----7--7-----7--7---------4--4-----4--4-----4--4-----4--4----------|
E|----------------------------------------------------------------------------------------------|

G|------------------------------------------------------------------------------------------|
D|-------------------------------------------------------------------------------6-6-------|
A|-7-7-7-7-7-7-7-7-7-7-7-7-7-7-7-7-7-7-7-7-7-7-7-7-7-7-7-7-7-7------------|
E|------------------------------------------------------------------------------------------|

G|----------------------------------------------------------------------------------------|
D|----------------------------------------------------------------------------------------|
A|--4-4-4-4-4-4-4-4-4-4-4-4-4-4-4-4---------------------------------------------|
E|-------------------------------------------5-5-5-5-5-5-5-5-5-5-5-5-5-5-5-5----|


Bridge
G|---------------------------------------------------------------------------------------------|
D|-----------------------------------------6--6---------------------------------------6--6---|
A|---7--7-----7--7-----7--7-/-\-7--7---------4--4-----4--4-----4--4-----4--4----------|
E|----------------------------------------------------------------------------------------------|

G|------------------------------------------------4-h-6-6-6-6-6-6-6-6-6-6-6-6-6-6-6-6--------------------------------------------|
D|-----------------------------------------6--6------------------------------------------------7-7-7-7-7-7-7-7-7-7-7-7-7-7-7-7---|
A|---7--7-----7--7-----7--7-----7--7---------------------------------------------------------------------------------------------------|
E|------------------------------------------------------------------------------------------------------------------------------------------|

Outro

G|---------------|
D|---------------|
A|--7--7--------|
E|---------------|

Alright, Enjoy.

Back to top Go down

Re: Post Your Own Lesson

Post  Grinch on Fri Apr 24, 2009 10:25 am

Nice Malice. It's a good one to play to get your alternative finger playing going.

I normally play the open A rather than playing 5th fret on the E.

Back to top Go down

Re: Post Your Own Lesson

Post  keizer on Mon Apr 27, 2009 5:08 am

Pretenders - My City Was Gone


Intro Intro and Verse
G||-----------| |------------------------|---------------------------|
D||------9/---| |------------7--8--9-----|-------6-----6-----6/---|
A||-----------| |---------------------7--|----7-----7-----7---------|
E||-----------| |--7----5----------------|--------------------------|


Chorus
G||------------------------|--------------------------|-----------------------------|
D||------------7--8--9----|--------6-----6-----6----|--7--7-----7--7-----7--7--|
A||---------------------7--|--7--7-----7-----7-------|--------9--------9---------|
E||--7----5----------------|--------------------------|----------------------------|

G||--------------------------11--12--13-----|----------------------|
D||--7-----7--7--7-----7h-9----------------|----------------------|
A||-----9-----------9------------------------|----------------7--7--|
E||--------------------------------------0---|----------0--0--------|

G||----------------------------|---------------------------|----------------------------|
D||----------------------------|---------------------------|--------------------12/----|
A||--------7--7--------7--7--|--------7--7--------7--7--|--------7--7--------------|
E||--0--0--------0--0--------|--0--0--------0--0--------|--0--0--------0--0--------|





http://www.youtube.com/watch?v=WFfURSTLvfw

Back to top Go down

Re: Post Your Own Lesson

Post  general lee on Thu Apr 30, 2009 11:05 am

Vertigo by U2:

Main Riff
G)-----------------------------------------------------------------------|
D)-----------------------------------------------------7-7-7-7-7-6-5-0|
A)-5-77-5-77-5-7-----------------5-77-5-77-5-7---------------------|
E)------------------5-5-5-5-5-4-3--------------------------------------|


Chorus
G)-------------------------------------------------------------------------|
D)-------------------------------------------------------------------------|
A)-7-7-7-7-7-7-7---5-5-5-5-5-5-5--------------------------------------|
E)--------------------------------------3-3-3-3-3-3-3---5-5-5-5-5-5-5-|


Bridge 1
G)-------------------------------------------------------------------------|
D)-7-7-7-7-7-7-7-7-7-7-7-7-7-7-7-7-7-7-7-7-7-7-7-7-7-7-7-7-7---|
A)-------------------------------------------------------------------------|
E)-------------------------------------------------------------------------|


Bridge 2
G)----------------------------------------------------------------|
D)----------------------------------------------------------------|
A)-5----7-7----5----7-7--5--7----5----7-7----5----7-7-5-----|
E)-----------------------------------------------------------5-3-|

G)------------------------------------------------|
D)------------------------------------------------|
A)-5----7-7----5----7-7-5-7----5----7-7----5-|
E)------------------------------------------------|

And the vid:



You just listen to the song and you'll have no problem figuring out the timing.



(sorry about the quality of the post, I was in a hurry...)

Back to top Go down

Re: Post Your Own Lesson

Post  lokki on Tue May 12, 2009 6:48 pm

Ok, this is the first time i do this.

I think i figured out: The Unforgiving II By Metallica. ( I could still be a little bit off though)

/ = Slide up

E|-5----5--5--5/8—8—8---3----3—3—0----0—0-----5----5—5/8—8—8—8\\3---------0----0---0---|

A|--------------------------------------------------------------------------------------------------------|

D|--------------------------------------------------------------------------------------------------------|

G|--------------------------------------------------------------------------------------------------------|



There should be another note between the last G and the first of the last three open E’s. I just haven’t found it yet, but I’m sure it’s somewhere on the A string

Back to top Go down

Re: Post Your Own Lesson

Post  Igastopheles on Wed May 13, 2009 9:49 pm

This is just a crazy idea, which will not be fulfilled(if I even attempt it) until I get a decent camera. But I thought I'd just throw it out there: would anyone at all be interested in bass how-to videos of every track off Metallica's Kill 'Em All album? This is the track listing(just for anyone who doesn't know it):

1. Hit the Lights
2. The Four Horsemen
3. Motorbreath
4. Jump in the Fire
5. (Anesthesia) Pulling Teeth
6. Whiplash
7. Phantom Lord
8. No Remorse
9. Seek & Destroy
10. Metal Militia

I'm definitely willing to record and upload all of them, with the exception of Anesthesia which would be a "maybe." I know Cliff never really played it the same way twice but I would still like to get as close to the studio track as possible. So I'll record that one if I can figure out enough of it to please me, haha.

Once again, this would not happen for several months, but I would love to start recording by the end of the year. Gives me plenty of time to burn every song into my brain(and bust my balls over Anesthesia), haha. I was just throwing the idea out there, wondering if anyone would appreciate me doing that sometime. Surprised

Back to top Go down

Re: Post Your Own Lesson

Post  mts on Tue May 19, 2009 10:44 pm

Stop! Hammer time!


A |---5----3----2----0----2---------2---0-|
D |------------------------------3------------|

Back to top Go down

Re: Post Your Own Lesson

Post  stefk0 on Tue May 26, 2009 3:33 pm

Gorillas, Feel good Inc


G--------------------------------------------------
D----------------------------------------------
A------------------3-2----------0~-- 0 -3- 2 ----
D#-0~-- 0--2-3------------------------------------3--0-----



Last edited by stefk0 on Tue May 26, 2009 7:24 pm; edited 1 time in total

Back to top Go down

Re: Post Your Own Lesson

Post  ThreeLetterSyndrom on Tue May 26, 2009 7:18 pm

Stefk0, that isn't right.

G-----------------------------------------
D--------------------------------(2)-----
G-----------3-2--0--0-3-2--------------
D-0--0-2-3-----------------3-0----------
This is the riff in D, but it requires two strings to be tuned down.

G----------------------------------------
D-----------------------------------(0)-
A------------1-0-------------------------
D-0--0-2-3-------3--3-1-0---3-0-----
This is easier, string wise, but it is a bit harder to play.

G-----------3-2--0--0-3-2------(7)------
D-0--0-2-3-----------------3-0----------
A------------------------------------------
E------------------------------------------
Best. Get an octave pedal and play Wink

The high D is sometimes played and sometimes not, but the whole song is this riff over and over again, sometimes with high D and sometimes without.

ThreeLetterSyndrom
A resident.
A resident.


View user profile

Back to top Go down

Re: Post Your Own Lesson

Post  stefk0 on Tue May 26, 2009 7:21 pm

srsly? I kept playing that my riff over and over again and it sounded swell to me.

I think it's in a #D btw...

EDIT: Edited to what feels right to me... I dunno why I had the first fret signalled, it's the second fret on the A.

Now I'm pretty sure it's in a #D


Last edited by stefk0 on Tue May 26, 2009 7:26 pm; edited 1 time in total

Back to top Go down

Re: Post Your Own Lesson

Post  ThreeLetterSyndrom on Tue May 26, 2009 7:24 pm

stefk0 wrote:srsly? I kept playing that my riff over and over again and it sounded swell to me.

I think it's in a #D btw...
You mean D-Sharp? The # sign comes after it and you should equal out it on your tab with the other notes. I usually play it in A, since I don't like to go through the hassle of tuning my bass for every fart.

G -----------3-2--0--0-3-2------(7)-------
D#-0--0-2-3-----------------3-0----------
A --------------------------------------------
E --------------------------------------------
Add an octave pedal and play Smile

ThreeLetterSyndrom
A resident.
A resident.


View user profile

Back to top Go down

Re: Post Your Own Lesson

Post  stefk0 on Tue May 26, 2009 7:31 pm

yea, D sharp.. my bad... Don't usually write it..
And loweing to D sharp it like a 5 -10 second thing.. I don't mind it

Back to top Go down

Re: Post Your Own Lesson

Post  ThreeLetterSyndrom on Wed May 27, 2009 7:49 am

stefk0 wrote:yea, D sharp.. my bad... Don't usually write it..
And loweing to D sharp it like a 5 -10 second thing.. I don't mind it
I failed this time. Tuning one string a half step up means you either have to tune the other one too, or play it one fret higher.

G ------------4-3--1--1-4-3------(Cool-------
D#-0--0-2-3-----------------3-0-----------
A --------------------------------------------
E --------------------------------------------
This is it, then?

ThreeLetterSyndrom
A resident.
A resident.


View user profile

Back to top Go down

Re: Post Your Own Lesson

Post  lokki on Wed Jun 03, 2009 8:57 pm

I was just toying around on my bass when i eventually came onto this.



g:-20-18-19—19-16—16-17—17-14—14-15—15-12

I’m thinking of saving this one as an outro. =D

Back to top Go down

Re: Post Your Own Lesson

Post  Cliff em' all on Fri Jun 05, 2009 8:20 pm

Igastopheles wrote:This is just a crazy idea, which will not be fulfilled(if I even attempt it) until I get a decent camera. But I thought I'd just throw it out there: would anyone at all be interested in bass how-to videos of every track off Metallica's Kill 'Em All album? This is the track listing(just for anyone who doesn't know it):

1. Hit the Lights
2. The Four Horsemen
3. Motorbreath
4. Jump in the Fire
5. (Anesthesia) Pulling Teeth
6. Whiplash
7. Phantom Lord
8. No Remorse
9. Seek & Destroy
10. Metal Militia

I'm definitely willing to record and upload all of them, with the exception of Anesthesia which would be a "maybe." I know Cliff never really played it the same way twice but I would still like to get as close to the studio track as possible. So I'll record that one if I can figure out enough of it to please me, haha.

Once again, this would not happen for several months, but I would love to start recording by the end of the year. Gives me plenty of time to burn every song into my brain(and bust my balls over Anesthesia), haha. I was just throwing the idea out there, wondering if anyone would appreciate me doing that sometime. Surprised


That,my friend,would be awsome!
avatar
Cliff em' all
A resident.
A resident.


View user profile

Back to top Go down

Re: Post Your Own Lesson

Post  Fuzzy on Sat Jun 06, 2009 8:25 am

The Simpsons Theme


G|-------2-0----------------------------|
D|---2-4-----2--------------------------|
A|-3-----------3-0---------------1-4444-|
E|-----------------222-3--222-3---------|


tip: start with your middle finger on the first note.

cheers

Back to top Go down

Re: Post Your Own Lesson

Post  Sponsored content


Sponsored content


Back to top Go down

Page 2 of 5 Previous  1, 2, 3, 4, 5  Next

View previous topic View next topic Back to top

- Similar topics

 
Permissions in this forum:
You cannot reply to topics in this forum