Free Bass guitar lessons

Let's experiment!

Go down

Let's experiment!

Post  ThreeLetterSyndrom on Sun Jul 05, 2009 2:28 pm

I've written a little piece which originated from some bassline I thought up. The thing is called Peculiar, and Rik de Kort, that's me Wink Now I've about finished it, I'd like to experiment. I've taken out the bassline in it and I would like for you to add a bassline. Then we can compare Smile

Tab for the guitar part (klik to open):
Spoiler:

E E E E E E E E
E||--------------10--12-------------|
B||----------12----------12---------|
G||*--9--12------------------12--9--|
D||*--------------------------------|
A||---------------------------------|
E||---------------------------------|


E E S S E E S S E E 4x
----------------------------------||
---------8-10--------8-10---------||
--7--10-------7--10-------10--7--*||
---------------------------------*||
----------------------------------||
----------------------------------||


E E E E E E E E
--------------10--12-------------|
----------12----------12---------|
*--9--12------------------12--9--|
*--------------------------------|
---------------------------------|
---------------------------------|


S S S S S S S S S S S S S S S S
--x-x-x-x-x-x-x-x-x-x-x-x-x-x-x-x-|
--x-x-x-x-x-x-x-x-x-x-x-x-x-x-x-x-|
--7-7-7-7-7-7-7-7-7-7-7-7-7-7-7-7-|
--x-x-x-x-x-x-x-x-x-x-x-x-x-x-x-x-|
--x-x-x-x-x-x-x-x-x-x-x-x-x-x-x-x-|
--x-x-x-x-x-x-x-x-x-x-x-x-x-x-x-x-|


E E E Q S S E E
|-------------------------------|
|-------------------------------|
|*------------------------------|
|*--10--7--10--7----10-7-10--7--|
|-------------------------------|
|----8--5---8--5-----8-5--8--5--|


E E S S Q E E E
-------------------------------|
-------------------------------|
-------------------------------|
--10--7--10-7-10----10--7--10--|
-------------------------------|
---8--5---8-5--8-----8--5---8--|


E E E Q S S E E
----------------------------------|
--13--10--13--10----13-10-13--10--|
----------------------------------|
--10---7--10---7----10--7-10---7--|
----------------------------------|
----------------------------------|


E S S E S S E S S S S S S 4x
--5---5--5--5---5--5-5---5--5--5--5--5--5--||
--x---x--x--x---x--x-x---x--x--x--x--x--x--||
--5---5--5--5---5--5-5---5--5--5--5--5--5-*||
--7---7--7--7---7--7-7---7--7--7--7--7--7-*||
-------------------------------------------||
-------------------------------------------||


E S S E S S E S S S S S S 4x
--5---5--5--5---5--5-5---5--5--5--5--5--5--||
--x---x--x--x---x--x-x---x--x--x--x--x--x--||
--5---5--5--5---5--5-5---5--5--5--5--5--5-*||
--7---7--7--7---7--7-7---7--7--7--7--7--7-*||
-------------------------------------------||
-------------------------------------------||


E S S E S S E S S S S S S
--5---5--5--5---5--5-5---5--5--5--5--5--5-|
--x---x--x--x---x--x-x---x--x--x--x--x--x-|
--5---5--5--5---5--5-5---5--5--5--5--5--5-|
--7---7--7--7---7--7-7---7--7--7--7--7--7-|
------------------------------------------|
------------------------------------------|


E E S S E E S S S S S S
|---12--15--x-x-12--15--x-x-12-15-x-x-|
|-----------x-x---------x-x-------x-x-|
|*---9--12--x-x--9--12--x-x--9-12-x-x-|
|*----------x-x---------x-x-------x-x-|
|-----------x-x---------x-x-------x-x-|
|-----------x-x---------x-x-------x-x-|


E E E S S S S S S S S S S 4x
--12--15--12--x-x-13-13-x-x-13-x-x-x--||
--------------x-x-------x-x----x-x-x--||
---9--12---9--x-x-10-10-x-x-10-x-x-x-*||
--------------x-x-------x-x----x-x-x-*||
--------------x-x-------x-x----x-x-x--||
--------------x-x-------x-x----x-x-x--||


H E E Q
---12---------L--12---L----|
----x-------------x---L----|
*---9---------L---9---L----|
*---x---------L---x---L----|
----x---------L---x---L----|
----x---------L---x---L----|


H E E Q 3x W
--13---------L--13---L-----||--12----------------|
---x---------L---x---L-----||--12----------------|
--10---------L--10---L----*||---9----------------|
---x---------L---x---L----*||---9----------------|
---x---------L---x---L-----||--------------------|
---x---------L---x---L-----||--------------------|


E E S S E E S S S S S S
-------||---12--15--x-x-12--15--x-x-12-15-x-x-|
-------||-----------x-x---------x-x-------x-x-|
-------||*---9--12--x-x--9--12--x-x--9-12-x-x-|
-------||*----------x-x---------x-x-------x-x-|
-------||-----------x-x---------x-x-------x-x-|
-------||-----------x-x---------x-x-------x-x-|


E E E S S S S S S S S S S 4x
--12--15--12--x-x-13-13-x-x-13-x-x-x--||
--------------x-x-------x-x----x-x-x--||
---9--12---9--x-x-10-10-x-x-10-x-x-x-*||
--------------x-x-------x-x----x-x-x-*||
--------------x-x-------x-x----x-x-x--||
--------------x-x-------x-x----x-x-x--||


E E S S E E S S S S S S
--12--15--x-x-12--15--x-x-12-15-x-x-|
----------x-x---------x-x-------x-x-|
---9--12--x-x--9--12--x-x--9-12-x-x-|
----------x-x---------x-x-------x-x-|
----------x-x---------x-x-------x-x-|
----------x-x---------x-x-------x-x-|


E E E S S S S S S S S S S
--12--15--12--x-x-13-13-x-x-13-x-x-x-|
--------------x-x-------x-x----x-x-x-|
---9--12---9--x-x-10-10-x-x-10-x-x-x-|
--------------x-x-------x-x----x-x-x-|
--------------x-x-------x-x----x-x-x-|
--------------x-x-------x-x----x-x-x-|


E E E E E E E E
-------------10--12-------------|
---------12----------12---------|
--9--12------------------12--9--|
--------------------------------|
--------------------------------|
--------------------------------|


E E S S E E S S E E
---------------------------------|
---------8-10--------8-10--------|
--7--10-------7--10-------10--7--|
---------------------------------|
---------------------------------|
---------------------------------|


E E E E E E E E
-------------10--12-------------|
---------12----------12---------|
--9--12------------------12--9--|
--------------------------------|
--------------------------------|
--------------------------------|


E E S S E E S S E E
---------------------------------|
---------8-10--------8-10--------|
--7--10-------7--10-------10--7--|
---------------------------------|
---------------------------------|
---------------------------------|


E E E E E E E E W
-------------10--12-------------|--7----------------||
---------12----------12---------|--8----------------||
--9--12------------------12--9--|--9----------------||
--------------------------------|--9----------------||
--------------------------------|--7----------------||
--------------------------------|--7----------------||




Duration Legend
---------------
W - whole
H - half
Q - quarter
E - 8th
S - 16th
T - 32nd
X - 64th
. - note dotted
|-n-| - n-tuplets

Midi file:
megaupload.com IWO5NZA4
You enter the code in the top right corner.

Guitar Pro file:
megaupload.com H8B150UX

Please post your lines here, in guitar pro tab or just a youtube video Smile
Oh, keep in mind that you aren't guessing for what I wrote Wink

ThreeLetterSyndrom
A resident.
A resident.


View user profile

Back to top Go down

Back to top

- Similar topics

 
Permissions in this forum:
You cannot reply to topics in this forum