Free Bass guitar lessons

Dmanlamius: Sleep, Melody, Sleep.

Page 1 of 2 1, 2  Next

Go down

Dmanlamius: Sleep, Melody, Sleep.

Post  Dmanlamius on Wed Sep 30, 2009 1:47 pm

Back to top Go down

Re: Dmanlamius: Sleep, Melody, Sleep.

Post  Cliff em' all on Wed Sep 30, 2009 6:26 pm

Oh...Saw that on tube.Great.Wish your daughter nice dreams from me!
avatar
Cliff em' all
A resident.
A resident.


View user profile

Back to top Go down

Re: Dmanlamius: Sleep, Melody, Sleep.

Post  Garth on Wed Sep 30, 2009 8:45 pm

That was awesome. But I don't think I could fall asleep to that, I would enjoy it too much Razz

Nice one

Back to top Go down

Re: Dmanlamius: Sleep, Melody, Sleep.

Post  BlackF89 on Thu Oct 01, 2009 1:42 am

Really soulful, good stuff Dman

Back to top Go down

Re: Dmanlamius: Sleep, Melody, Sleep.

Post  Fuzzy on Thu Oct 01, 2009 5:54 am

Verrry nice
Might have to clear a day or two out of my schedule and try to tab it Wink

Back to top Go down

Re: Dmanlamius: Sleep, Melody, Sleep.

Post  ezekiel on Thu Oct 01, 2009 2:01 pm

Really, Really Amazing


WOW!

Back to top Go down

Re: Dmanlamius: Sleep, Melody, Sleep.

Post  BlackF89 on Thu Oct 01, 2009 2:23 pm

Seriously bass chords are bad ass, I'm gonna have to get the cool chords lesson once I get paid

Back to top Go down

Re: Dmanlamius: Sleep, Melody, Sleep.

Post  Fuzzy on Wed Oct 07, 2009 3:01 pm

See next page for v2.0


Last edited by Fuzzy on Sat Jan 30, 2010 3:43 am; edited 11 times in total

Back to top Go down

Re: Dmanlamius: Sleep, Melody, Sleep.

Post  WNx3fed on Wed Oct 07, 2009 3:32 pm

Fuzzydice45 wrote:Here's my first try at tabbing it..

\ = Slide Down
/ = Slide Up
h = Hammer On/Tap
p = Pull Off
^ = Bend

0:02 - 0:12
G|-----h9-h11-/-13-\-11-p9--9--9-9--h14-/-16-p9--9--9----h11-/-13-\-11-p9----9-|
D|---h9---------------------9---9----------------9---9-----------------------9-|
A|-h7----------------------------10--------------------------------------------|
E|----------------------------------------------------10-------------------10--|

0:12 - 0:23
G|-9----h14-/-16-p9--9--9------h9-h11-/-13-\-11-p9--9--9-9--h16-\-14-p9--9-|
D|--9----------------9---9---h9---------------------9---9----------------9-|
A|---0---------------------h7----------------------------10----------------|
E|-------------------------------------------------------------------------|

0:23 - 0:31
G|-9-----h11-/-13-\-11-p9----9--9---h14-/-16-|
D|--9------------------------9---9--h14-/-16-|
A|--------------------------------0----------|
E|---10--------------------10----------------|

0:31 - 0:59 (Play twice)
G|----9--h12-9-------9--h12-9----9--h12-9-------9--h12-9------9--h12-9-----9--h12-9---9--h12-9--h14-9--h16-|
D|---9-9-h12--9-----9-9-h12--9--9-9-h12--9-----9-9-h12--9----9-9-h12--9---9-9-h12--9-9-9-h12-9--h14-9--h16-|
A|-10----------10-10----------------------------------------0----------0-0---------------------------------|
E|----------------------------10----------10-10----------10-------------------------0---------0------0-----|

0:59 - 1:08
G|-9----9--h21-9-------9--h21-9---8--h21-8----8--h21^-|
D|-9---9-9-h21-9------9-9-h21-9--8-8-h21-8---8-8-h21^-|
A|---10----------10-10----------9---------9-9---------|
E|----------------------------------------------------|

1:08 - 1:28 (Play twice)
G|-13^--h16-13--13^--h16-13------h21---h12^-|
D|----------13-----------13----11-----7-----|
A|---------------------------12------9------|
E|-13-----------10--------------------------|

1:28 - 1:47 (Play four times)
G|-------9--9-12-11-------9--9-11-12-|
D|----12-0-------------12-0----------|
A|----0----------------0-------------|
E|-12---------------12---------------|

1:47 - 1:54
G|-----13------13------13-----13-------13------13------13-----13-------13------13---|
D|---12--12--12--12--12--12--12--12--12--12--12--12--12--12--12--12--12--12--12--12-|
A|----------------------------------------------------------------------------------|
E|-12------12------12------12------12------12------12------12------12------12-------|

1:54 - 2:05
G|----9----9---7---7---2---2-----13------13-----9----9---7---7----12----12-----13------13---|
D|---0-0--0-0-0-0-0-0-0-0-0-0--12--12--12--12--0-0--0-0-0-0-0-0--0--0--0--0--12--12--12--12-|
A|-10---10---8---8---3---3-------------------10---10---8---8---13----13---------------------|
E|---------------------------12------12------------------------------------12------12-------|

2:05 - 2:15
G|----9----9---7---7---2---2-----13------13-----9----9---7---7----12----12--|
D|---0-0--0-0-0-0-0-0-0-0-0-0--12--12--12--12--0-0--0-0-0-0-0-0--0--0--0--0-|
A|-10---10---8---8---3---3-------------------10---10---8---8---13----13-----|
E|---------------------------12------12-------------------------------------|

2:15 - 2:28
G|-----13------13-----9----9---7---7---2---2---2---2---4---4---4---4---4---4---4---4--|
D|---12--12--12--12--0-0--0-0-0-0-0-0-0-0-0-0-0-0-0-0-0-0-0-0-0-0-0-0-0-0-0-0-0-0-0-0-|
A|-----------------10---10---8---8---3---3---3---3---5---5---5---5---6---6---6---6----|
E|-12------12-------------------------------------------------------------------------|

2:28 - 2:50 (Play four times)
G|---0---0---0---0---0---0---0---0--|
D|--5-5-5-5-7-7-7-7-5-5-5-5-5-5-5-5-|
A|-7---7---9---9---0---0---0---0----|
E|----------------------------------|

2:50
G|-------0---0---0---0---0---0---------12-14^---------0---0---0---0---0---0--|
D|------5-5-5-5-7-7-7-7-5-5-5-5--12-14--------14-13--5-5-5-5-7-7-7-7-5-5-5-5-|
A|-3-4-7---7---9---9---0---0------------------------7---7---9---9---0---0----|
E|---------------------------------------------------------------------------|


That hurt my eyes ... LOL

EDIT- I forgot to say this is much appreciated, it seems like it took you a while, THANKS! Very Happy

Back to top Go down

Re: Dmanlamius: Sleep, Melody, Sleep.

Post  ezekiel on Wed Oct 07, 2009 3:54 pm

Awesome work...thanks for the effort!

Back to top Go down

Re: Dmanlamius: Sleep, Melody, Sleep.

Post  Fuzzy on Wed Oct 07, 2009 4:01 pm

WNx3fed wrote:That hurt my eyes ... LOL

It hurt your eyes?
I've been staring at dman's ugly mug for the last few hours trying to tab this, how d'you think i feel?
lol!

Back to top Go down

Re: Dmanlamius: Sleep, Melody, Sleep.

Post  BlackF89 on Wed Oct 07, 2009 4:29 pm

Fuzzydice45 wrote:Here's my first try at tabbing it..

+rep for you sir

Back to top Go down

Re: Dmanlamius: Sleep, Melody, Sleep.

Post  Drakon7 on Wed Oct 07, 2009 9:17 pm

I dont know wether to be impressed or feel pity for you spending so much time on it.

Either way, you called Dman ugly, thusly, banhammer in 10 seconds and counting =P

Either way, cant wait to learn it!

wait! thats what I should do!

Im off to the SOTW thread to edit my last post! Smile

Back to top Go down

Re: Dmanlamius: Sleep, Melody, Sleep.

Post  Smaz on Wed Oct 07, 2009 10:54 pm

Fuzzydice45 wrote:Here's my first try at tabbing it..
*tab stuffs*

That gets my vote for 'Thanked by Lamius! status Wink

I'll give that a go tomorrow - cheers mate!

_________________

Back to top Go down

Re: Dmanlamius: Sleep, Melody, Sleep.

Post  Garth on Thu Oct 08, 2009 12:26 am

Great tab man!

I don't know bout this, but when I first heard the song my bass was tuned down a half step, and it sounded like it was right to me, not 100% sure on that though. So tuning of D#, G#, C#, F#

Much appreciated tab Very Happy


Last edited by Garth on Thu Oct 08, 2009 2:47 am; edited 1 time in total

Back to top Go down

Re: Dmanlamius: Sleep, Melody, Sleep.

Post  Fuzzy on Thu Oct 08, 2009 2:28 am

No prob guys Wink
Theres a few parts that i'm not sure about, if anyone with a bass tuned EADG could go through it that'd be great.

Back to top Go down

Re: Dmanlamius: Sleep, Melody, Sleep.

Post  adrunkhunter on Fri Oct 16, 2009 2:57 pm

Fuzzydice45 wrote:No prob guys Wink
Theres a few parts that i'm not sure about, if anyone with a bass tuned EADG could go through it that'd be great.

i was playing the song on my bass tuned EADG, and it sounds basically perfect, all that i was missing was my multi pedal Cool

Back to top Go down

Re: Dmanlamius: Sleep, Melody, Sleep.

Post  maxf13 on Wed Oct 28, 2009 8:59 pm

Garth wrote:Great tab man!

I don't know bout this, but when I first heard the song my bass was tuned down a half step, and it sounded like it was right to me, not 100% sure on that though. So tuning of D#, G#, C#, F#

Much appreciated tab Very Happy

yh im pretty sure dman is playing it in Eb/D# tuning

Back to top Go down

Re: Dmanlamius: Sleep, Melody, Sleep.

Post  Protoplm on Fri Oct 30, 2009 12:12 am

Don't know, but I loved it..

So much delay and reverb, I lost myself listening to it. I woke up out of a trance realizing that 3 mins of my life just passed in a few seconds.. hm.

Back to top Go down

Re: Dmanlamius: Sleep, Melody, Sleep.

Post  Fuzzy on Sat Jan 30, 2010 3:51 am

Sleep, Melody, Sleep Tab v2.0
Let's see if I got it right this time..
Unfortunately because of the new format I can't paste it here, so I had to take a screenshot of it and post it as a picture.



Last edited by Fuzzy on Mon Feb 01, 2010 5:05 am; edited 1 time in total

Back to top Go down

Re: Dmanlamius: Sleep, Melody, Sleep.

Post  maxf13 on Sat Jan 30, 2010 1:53 pm

seems like a good job there
i didnt have time to try it out yet but from looking at it it seems spot on
+1 for taking the time to do that

Back to top Go down

Re: Dmanlamius: Sleep, Melody, Sleep.

Post  Spoon on Sat Jan 30, 2010 6:27 pm

what effects you using on this one? A delay?

Back to top Go down

Re: Dmanlamius: Sleep, Melody, Sleep.

Post  Dmanlamius on Fri Mar 12, 2010 2:28 pm

It's an effect on my Pandora. BHARM I think?

Anyway, check this cover of it out guys. Very good:

Sleep Melody, covered.

Back to top Go down

Re: Dmanlamius: Sleep, Melody, Sleep.

Post  FranR on Fri Mar 12, 2010 9:48 pm

Dmanlamius wrote:It's an effect on my Pandora. BHARM I think?

Anyway, check this cover of it out guys. Very good:

Sleep Melody, covered.

It's not showing for me ... did a bit of searching (not too hard, since I actually found it). This is the one, right? right?