Free Bass guitar lessons


Join the forum, it's quick and easy

Free Bass guitar lessons
Free Bass guitar lessons
Would you like to react to this message? Create an account in a few clicks or log in to continue.

Noisettes: Never Forget You

3 posters

Go down

Noisettes: Never Forget You Empty Noisettes: Never Forget You

Post  Nocturnal_Pulse Fri Apr 30, 2010 12:57 am

Okay I know am such a n00b when it comes to tabbing, but everywhere i've searched I havent found this particular playing.

If someone has the kindess and the time, can you transpose it please?

Nocturnal_Pulse
Nocturnal_Pulse
A resident.
A resident.


Back to top Go down

Noisettes: Never Forget You Empty Re: Noisettes: Never Forget You

Post  mts Mon May 10, 2010 10:50 pm

Aerodyne!! GIEV me that basss!!
mts
mts


Back to top Go down

Noisettes: Never Forget You Empty Re: Noisettes: Never Forget You

Post  Smaz Tue May 11, 2010 6:34 am

Lemme see what I can do for you...

king

_________________
Noisettes: Never Forget You Pbn
Smaz
Smaz


Back to top Go down

Noisettes: Never Forget You Empty Re: Noisettes: Never Forget You

Post  Smaz Tue May 11, 2010 7:13 am

Ok I've only had 15 minutes before work, so this isn't finished and I haven't done the bridge, plus theres probably a couple of fills etc... But it should be enough to get you started for now?

Verse part 1

G|-----------------------|----------------------|
D|--------------------7--|--9--9-9--9--9-9-7----|
A|--5--5-5--5--5-7/9-----|-------------------9\-|
E|-----------------------|----------------------|

Verse part 2

G|-------------------7---|-----------------------|
D|--5--5-5--5--5-7/9--9\-|--------------------7--|
A|-----------------------|--5--5-5--5--5-7/9-----|
E|-----------------------|-----------------------|

End of verse - Not sure on the last 3 notes, but sounds ok Smile
G|-------------------7---|-----------------------|
D|--5--5-5--5--5-7/9--9\-|-----------------------|
A|-----------------------|--5--5-5--5--5-5-0-3-0-|
E|-----------------------|-----------------------|

Chorus

G|------------------|------------------|------------------|------------------|
D|--5--5-5-5-5-5-5--|------------------|------------------|------------------|
A|------------------|-5--5-5-5-5-5-5-5-|------------------|------------------|
E|------------------|------------------|-5--5-5-5-5-5-5-5-|-2--2-2-2-2-2-2-2-|

G|------------------|------------------|-----------------------|
D|------------------|------------------|------------5----------|
A|------------------|------------------|-5--5-5-5-5---5--5-5-5-|
E|-3--3-3-3-3-3-3-3-|-5--5-5-5-5-5-5-5-|-----------------------|

Bridge

To do!

Post bridge, everything shifts up 2 frets.

G|-----------------------|-----------------------------|
D|--------------------9--|--11--11-11--11--11-11-9-----|
A|--7--7-7--7--7-9/11----|-------------------------11\-|
E|-----------------------|-----------------------------|

Verse part 2

G|--------------------9-----|------------------------|
D|--7--7-7--7--7-9/11---11\-|--------------------9---|
A|--------------------------|--7--7-7--7--7-9/11-----|
E|--------------------------|------------------------|

End of verse
G|--------------------9-----|-----------------------|
D|--7--7-7--7--7-9/11---11\-|-----------------------|
A|--------------------------|--7--7-7--7--7-7-5-7-5-|
E|--------------------------|-----------------------|

Chorus

G|------------------|------------------|------------------|------------------|
D|--7--7-7-7-7-7-7--|------------------|------------------|------------------|
A|------------------|-7--7-7-7-7-7-7-7-|------------------|------------------|
E|------------------|------------------|-7--7-7-7-7-7-7-7-|-4--4-4-4-4-4-4-4-|

G|------------------|------------------|-----------------------|
D|------------------|------------------|------------7----------|
A|------------------|------------------|-7--7-7-7-7---7--7-7-7-|
E|-5--5-5-5-5-5-5-5-|-7--7-7-7-7-7-7-7-|-----------------------|

_________________
Noisettes: Never Forget You Pbn
Smaz
Smaz


Back to top Go down

Noisettes: Never Forget You Empty Re: Noisettes: Never Forget You

Post  Nocturnal_Pulse Tue May 11, 2010 12:57 pm

Wowowowowowow thanks man that's lots of work!
Nocturnal_Pulse
Nocturnal_Pulse
A resident.
A resident.


Back to top Go down

Noisettes: Never Forget You Empty Re: Noisettes: Never Forget You

Post  Sponsored content


Sponsored content


Back to top Go down

Back to top


 
Permissions in this forum:
You cannot reply to topics in this forum