Free Bass guitar lessons


Join the forum, it's quick and easy

Free Bass guitar lessons
Free Bass guitar lessons
Would you like to react to this message? Create an account in a few clicks or log in to continue.

Your Riffs

+2
DavidM96
willba
6 posters

Go down

Your Riffs Empty Your Riffs

Post  willba Sun May 30, 2010 8:42 pm

I know some people dont wont riffs stolen etc, but i just feeling like putting up some random stuff so ive created the thread ready Very Happy
willba
willba
A resident.
A resident.


Back to top Go down

Your Riffs Empty Re: Your Riffs

Post  DavidM96 Sun May 30, 2010 8:53 pm

alright heres a slap n pop riff i made:

|--------------------5----------------------|
|--------------5h7-------------------------|
|--------------------------------------------|
|--5-5-5-55-------------------------------- |
s s s ss p p

|------------------5-7-----------------|
|------------5h7----------------|
|----------------------------|
|--5-5-5-55--------------------|
s s s ss p p p

repeat 1st part

|-----------5h7-5-----|
|-------7-5--------------|
|-------------------------|
|--5-5-----------------|
s s p p p p

heres how i play it: 053000951718_00_.wav - 0.01MB
DavidM96
DavidM96
A resident.
A resident.


Back to top Go down

Your Riffs Empty Your Riffs

Post  willba Sun May 30, 2010 10:30 pm

Couples of bits I made up and recorded real quick. Smile



willba
willba
A resident.
A resident.


Back to top Go down

Your Riffs Empty Re: Your Riffs

Post  DavidM96 Sun May 30, 2010 10:38 pm

Nice man i like em' Very Happy
DavidM96
DavidM96
A resident.
A resident.


Back to top Go down

Your Riffs Empty Re: Your Riffs

Post  lololiet Mon May 31, 2010 12:03 pm

Nice, I like the second one.
lololiet
lololiet
A resident.
A resident.


Back to top Go down

Your Riffs Empty Re: Your Riffs

Post  ThreeLetterSyndrom Mon May 31, 2010 12:18 pm

Something I came up with:

G|---------------|-------------|----------765-|---------------|
D|-----5--3------|---5--3------|----5--3------|-----5--3------|
A|-----------543-|-------------|--------------|-----------345-|
E|--3------------|-3--------012|--3-----------|--3------------|


It's a really laid-back funky groove. Make sure to play it slow.


Last edited by ThreeLetterSyndrom on Mon May 31, 2010 6:52 pm; edited 1 time in total

ThreeLetterSyndrom
A resident.
A resident.


Back to top Go down

Your Riffs Empty Re: Your Riffs

Post  DavidM96 Mon May 31, 2010 1:27 pm

Nice man i really feel the groove there
DavidM96
DavidM96
A resident.
A resident.


Back to top Go down

Your Riffs Empty Re: Your Riffs

Post  DavidM96 Mon May 31, 2010 4:51 pm

sorry double post:

another rif i made:


G|--22-22-22-22-22-22-22-22-22-19-19-19-21-21-21-21--|
D|---0*----------------------------------------------------------|
A|----------------------------------------------------------------|
E|-----------------------------------------------------------------|

G|--22-22-22-22-22-22-22-22-22-19-19-19-21-21-21-19-19
D|---0*----------------------------------------------------------|
A|----------------------------------------------------------------|
E|-----------------------------------------------------------------|

repeat first part


G|--22-22-22-22-22-22-22-22-22---21---19---17-----19--19--19--19--19*--|
D|---0*-----------------------------------------------------0*--0*--0*--0*--0*----|
A|---------------------------------------------------------------------------------|
E|----------------------------------------------------------------------------------|

053100951253_00_.wav - 0.03MB

the tabs might bwe kinda off i rushed while tabbing it.


Last edited by DavidM96 on Wed Jun 09, 2010 8:25 pm; edited 1 time in total
DavidM96
DavidM96
A resident.
A resident.


Back to top Go down

Your Riffs Empty Re: Your Riffs

Post  maxf13 Mon May 31, 2010 9:38 pm

ThreeLetterSyndrom wrote:Something I came up with:

G|---------------|-------------|----------765-|---------------|
D|-----5--3------|---5--3------|----5--3------|-----5--3------|
A|-----------543-|-------------|--------------|-----------345-|
E|--3------------|-3--------012|--3-----------|--3------------|


It's a really laid-back funky groove. Make sure to play it slow.


do like


G|---------------|-------------|----------765-|---------------|
D|-----5--3------|---3--1------|----5--3------|---------------|
A|-----------543-|-------------|--------------|---------------|
E|--3------------|-1--------012|--3-----------|x-0-x-1-x-2-x-x|


dont hate me
maxf13
maxf13


Back to top Go down

Your Riffs Empty Re: Your Riffs

Post  Dropthelines585 Tue Jun 01, 2010 1:13 am

MODS PLZ MOVE TO TAB SECTION
Dropthelines585
Dropthelines585
A resident.
A resident.


Back to top Go down

Your Riffs Empty Re: Your Riffs

Post  lololiet Sat Jun 12, 2010 3:51 pm

G|---------------------------------------------------------
D|---------------------------------------------------------
A|--1--0-333-333---------------0-333-333-------------
E|--------------------0-11-0-11----------------0-11-0-11
lololiet
lololiet
A resident.
A resident.


Back to top Go down

Your Riffs Empty Re: Your Riffs

Post  Sponsored content


Sponsored content


Back to top Go down

Back to top


 
Permissions in this forum:
You cannot reply to topics in this forum