Free Bass guitar lessons


Join the forum, it's quick and easy

Free Bass guitar lessons
Free Bass guitar lessons
Would you like to react to this message? Create an account in a few clicks or log in to continue.

[Help me finish] Can't Stop by RHCP

3 posters

Go down

[Help me finish] Can't Stop by RHCP Empty [Help me finish] Can't Stop by RHCP

Post  Some freaky guy Wed Jun 02, 2010 6:02 pm

So, this dude-I-can't-remember-the-name-of said he wanted bass tabs for Can't Stop by RHCP. I have an unfinished tab that I can't seem to finish due to failure and laziness. Can some of the more talented people out there help me finish it?



Intro


E--------------------------------
A-7-7-7-7-7-7-7-7-7-7-7-7-7-7-7-7
D--------------------------------
G--------------------------------
x7


E-----------------0-0-0-0-0-0-0-0-0
A-7-7-7-7-7-7-7-7------------------
D----------------------------------
G----------------------------------
x1

-------------------------GUITAR, DRUM AND VOCAL STUFF-----------------------------------------------

Verse

Do what Dman taught you, slap the E and the A and pop the D and the G.



E--------------------------------------
A-7------7-7--x-x-x--7-5-----5-5-x-x-x-
D--------------------------------------
G---7-9--------7-9-x-----7-9------7-9-x



E-5-7-----7-7-x-x-x--7-8--------8-8-x--x--x-
A-------------------------------------------
D-----9-9------9-9-x-----10-10-------10-10-x
G-------------------------------------------


------------------------------------------------------------------------------------------

Chorus:

Flea seems to follow the vocals here, and I can't get it right. Help would be appreciated here. Pretty please.

-------------------------------------------------------------------------------------------

Verse 2:

This is played after the second chorus (The world I love, the tears I drop, to be part of, the wave can't stop)

Part 1:

E---------|-------10---
A-7-7---7-|------------
D---------|----12----12
G-----9---|-14---------


Part 2:

E-7-7--7--|---------8--
A---------|------------
D-----9---|----12-10-10
G---------|------------


Part 3:

E-10-11---
A---------
D---------
G---------


Part 4:

E-------10h11-
A-10h12-------
D-------------
G-------------


Verse 2 is played like this:
Part 1
Part 2
Part 1
Part 2
Part 3
Part 1
Part 2
Part 4
Part 1
Part 2
-------------------------------------------------------------------------------------------

Almost there now, just need the chorus!

Cheers, everyone!


Last edited by Some freaky guy on Tue Sep 14, 2010 2:53 pm; edited 1 time in total
Some freaky guy
Some freaky guy
A resident.
A resident.


Back to top Go down

[Help me finish] Can't Stop by RHCP Empty Re: [Help me finish] Can't Stop by RHCP

Post  SyneRRR Wed Jun 02, 2010 6:11 pm

Thanks man, and think this will help alot of other people as well !
SyneRRR
SyneRRR


Back to top Go down

[Help me finish] Can't Stop by RHCP Empty Re: [Help me finish] Can't Stop by RHCP

Post  Some freaky guy Tue Sep 14, 2010 2:54 pm

Updated the tab a lot, almost done now.
Some freaky guy
Some freaky guy
A resident.
A resident.


Back to top Go down

[Help me finish] Can't Stop by RHCP Empty Re: [Help me finish] Can't Stop by RHCP

Post  ThreeLetterSyndrom Tue Sep 14, 2010 3:02 pm

The usual order of strings on a tab is GDAE (top to bottom). This is a bit hard to read. I think that during the chorus, it still follows the chords in the verse. Not too sure, though.

Also, shouldn't that be an open E instead of an octave higher in the intro?

EDIT: It isn't the chords from the verse. It's two chords repeating. G, or something, followed by going down to F or up to Bb, I can't tell. I'd need a bass. Razz

ThreeLetterSyndrom
A resident.
A resident.


Back to top Go down

[Help me finish] Can't Stop by RHCP Empty Re: [Help me finish] Can't Stop by RHCP

Post  Some freaky guy Wed Sep 15, 2010 12:46 pm

Huh. It felt completely natural when I wrote it.

I THINK the intro is like that. I've seen some play it the other way around, starting with opens and going to 7th of the A as well.
Some freaky guy
Some freaky guy
A resident.
A resident.


Back to top Go down

[Help me finish] Can't Stop by RHCP Empty Re: [Help me finish] Can't Stop by RHCP

Post  Sponsored content


Sponsored content


Back to top Go down

Back to top


 
Permissions in this forum:
You cannot reply to topics in this forum