Free Bass guitar lessons


Join the forum, it's quick and easy

Free Bass guitar lessons
Free Bass guitar lessons
Would you like to react to this message? Create an account in a few clicks or log in to continue.

A favour....

3 posters

Go down

A favour.... Empty A favour....

Post  willba Fri Jun 11, 2010 12:14 pm

I have a favour for...anyone really.

Here the solo that a tabbed a few months back. Its ok but there are definitely bits im missing and I thought it'd be useful for anyone wanting to improve their tabbing by ear skills, and it would help me as I get a request for this tab about every week and I dont like sending it knowing its not 100 % correct. Sad

Thanks in advance Smile

PS-I know its a 5 string, ive tried to adapt it as most people have 4 strings.





G[---------------------------------------------------5h0-----5h7-775------5-------]
D[5r----------------------5h7-5h7-5h7-5h7-7-7------------77--------7p5p7-7-7-7----]
A[7r---0-0-0-0---0-5h7------------------------------------------------------------]
E[--------------------------------------------------------------------------------]


G[-----------------------------------------------]
D[-----------------------------------------------]
A[-0h5h7-7-7-5---5b-5-5-3-----------------3h5----]
E[------------7/5-----------------5-5/1\3h5------]




G[--------------------------------------------------------]
D[--------------------------------------------------------]
A[------555-666-777----5h3--------------3h5-555-666-777---]
E[--------------------------5----5/1\3h5------------------]


G[------------------------------------------------------------------]
D[-------345/14--14-14-14h12----------------------------------------]
A[-345-------------------------14-13-12-10-------- 12-12—12-11-10---]
E[------------------------------------------12-------------------12-]



G[-------------------------------------------------------------------------------------------------------------------]
D[-------------------------------------------------------------------------------------------------------------------]
A[-12-12--12-11-10-----------12-12--12-11-10-------------------------------------------------------------------------]
E[-----------------12-----------------------12-12-------0-0-3-0-3-00-3-0--0-3-0-3-00-3-5-3-0-3-0-3-00-3-0--0-3h5-----]

G[-----------------------------9-9-9-9r-]
D[-----------------------------9-9-9-9r-]
A[---------------5h7-7-7-7-----7-7-7-7r-]
E[3p5p3p5p3p5---------------------------]


Last edited by willba on Fri Jun 11, 2010 5:59 pm; edited 1 time in total
willba
willba
A resident.
A resident.


Back to top Go down

A favour.... Empty Re: A favour....

Post  Some freaky guy Fri Jun 11, 2010 5:36 pm

You should post the tab in the Courier-font, it keeps it from breaking.
Some freaky guy
Some freaky guy
A resident.
A resident.


Back to top Go down

A favour.... Empty Re: A favour....

Post  willba Fri Jun 11, 2010 5:59 pm

[quote="willba"]I have a favour for...anyone really.

Here the solo that a tabbed a few months back. Its ok but there are definitely bits im missing and I thought it'd be useful for anyone wanting to improve their tabbing by ear skills, and it would help me as I get a request for this tab about every week and I dont like sending it knowing its not 100 % correct. Sad

Thanks in advance Smile

PS-I know its a 5 string, ive tried to adapt it as most people have 4 strings.




G[---------------------------------------------------5h0-----5h7-775------5-------]
D[5r----------------------5h7-5h7-5h7-5h7-7-7------------77--------7p5p7-7-7-7----]
A[7r---0-0-0-0---0-5h7------------------------------------------------------------]
E[--------------------------------------------------------------------------------]


G[-----------------------------------------------]
D[-----------------------------------------------]
A[-0h5h7-7-7-5---5b-5-5-3-----------------3h5----]
E[------------7/5-----------------5-5/1\3h5------]




G[--------------------------------------------------------]
D[--------------------------------------------------------]
A[------555-666-777----5h3--------------3h5-555-666-777---]
E[--------------------------5----5/1\3h5------------------]


G[------------------------------------------------------------------]
D[-------345/14--14-14-14h12----------------------------------------]
A[-345-------------------------14-13-12-10-------- 12-12—12-11-10---]
E[------------------------------------------12-------------------12-]



G[-------------------------------------------------------------------------------------------------------------------]
D[-------------------------------------------------------------------------------------------------------------------]
A[-12-12--12-11-10-----------12-12--12-11-10-------------------------------------------------------------------------]
E[-----------------12-----------------------12-12-------0-0-3-0-3-00-3-0--0-3-0-3-00-3-5-3-0-3-0-3-00-3-0--0-3h5-----]

G[-----------------------------9-9-9-9r-]
D[-----------------------------9-9-9-9r-]
A[---------------5h7-7-7-7-----7-7-7-7r-]
E[3p5p3p5p3p5---------------------------]
willba
willba
A resident.
A resident.


Back to top Go down

A favour.... Empty Re: A favour....

Post  maxf13 Fri Jun 11, 2010 6:38 pm

nice quoting there XD
maxf13
maxf13


Back to top Go down

A favour.... Empty A favour....

Post  willba Fri Jun 11, 2010 6:44 pm

Didnt realise i'd done that XD
willba
willba
A resident.
A resident.


Back to top Go down

A favour.... Empty Re: A favour....

Post  Sponsored content


Sponsored content


Back to top Go down

Back to top


 
Permissions in this forum:
You cannot reply to topics in this forum