Free Bass guitar lessons


Join the forum, it's quick and easy

Free Bass guitar lessons
Free Bass guitar lessons
Would you like to react to this message? Create an account in a few clicks or log in to continue.

My Riffs- Asshunter

Go down

My Riffs- Asshunter Empty My Riffs- Asshunter

Post  Asshunter Fri Mar 30, 2012 8:16 pm

Hello, I am new here, and new in the wolrd of bass! Very Happy
Hope i will learn here how to play like you guys
and I will be posting here my riffs (i will just bump the thread)
Please don't ask where i get these titles - just random words Razz

First one is quite short, hope you like this
My Riffs- Asshunter NojWN
Asshunter- Mold
G-----------------------------
D--10-8-8--10----------------
A-9--9----9--9-7-7-----------
E-----------------------------

speedy.sh/XaWmJ/Asshunter-Mold.wma
Please rate! [1-5]
My Riffs- Asshunter NojWN

Asshunter- Tricky
G----------------------------------------------
D-------8---9--8--7--8------8----9--8--7--8--
A-9--9----9------------9--9----9--------------
E----------------------------------------------

speedy.sh/GMvAg/Asshunter-Tricky.wma
My Riffs- Asshunter NojWN

Asshunter- Tricky 2 (second option)
G----------------------------------------------
D-------8---9--8--7--8------7----8--7--6--7--
A-9--9----9------------8--8----8--------------
E----------------------------------------------

speedy.sh/Cg78G/Asshunter-Tricky-2.wma

My Riffs- Asshunter NojWN

Asshunter


Back to top Go down

Back to top


 
Permissions in this forum:
You cannot reply to topics in this forum