Free Bass guitar lessons

Your YouTube Videos

Page 2 of 8 Previous  1, 2, 3, 4, 5, 6, 7, 8  Next

View previous topic View next topic Go down

Re: Your YouTube Videos

Post  Faceslide on Fri May 22, 2009 5:18 pm

Yea, I'm just not at all well versed as far as the effects go so I had no idea, My amp has no such setting so I was at a loss.

Back to top Go down

Re: Your YouTube Videos

Post  Smaz on Sun May 24, 2009 3:32 pm

More to come! Smile



Sweet Emotion - Aerosmith

Back to top Go down

Re: Your YouTube Videos

Post  danthewelshy on Wed May 27, 2009 2:39 pm

latest offering



Found a new ace japanese guitarist, he played all the parts john played in the studio so turned out we didn't even need to put it over the original recording. All you can hear is out instruments here.

Back to top Go down

Re: Your YouTube Videos

Post  Fuzzy on Wed May 27, 2009 7:27 pm

sweeeet!
nice job dan Very Happy

Back to top Go down

Re: Your YouTube Videos

Post  Dr.Sterni on Sun Jun 14, 2009 3:50 pm

All theses videos are fantastic to watch. Thanks a lot to all of you!

This "internet-band" by Dan is really awesome!

Incredible idea!!!!

Back to top Go down

Re: Your YouTube Videos

Post  Fuzzy on Wed Jun 17, 2009 2:37 pm

See next post.
Very Happy


Last edited by Fuzzydice45 on Sun Jun 21, 2009 3:44 pm; edited 1 time in total

Back to top Go down

Re: Your YouTube Videos

Post  Fuzzy on Sun Jun 21, 2009 3:41 pm

Heres another one.. different tab this time, the one before was a slimmed down easier version.
I REALLY need those new strings, my current set sound so muddy..

http://www.dailymotion.com/fuzzydice45/video/16202588

Back to top Go down

Re: Your YouTube Videos

Post  danthewelshy on Sun Jun 21, 2009 6:36 pm

Fuzzydice45 wrote:Heres another one.. different tab this time, the one before was a slimmed down easier version.
I REALLY need those new strings, my current set sound so muddy..

http://www.dailymotion.com/fuzzydice45/video/16202588

ROCKING! bounce bounce bounce bounce bounce bounce

Back to top Go down

Re: Your YouTube Videos

Post  Smaz on Sun Jun 21, 2009 10:15 pm

Fuzzydice45 wrote:Heres another one.. different tab this time, the one before was a slimmed down easier version.
I REALLY need those new strings, my current set sound so muddy..

http://www.dailymotion.com/fuzzydice45/video/16202588

Good playing! Wink

I think you definatley need new strings - the sound you have is so quiet, and a little hard to pick out. New strings would be much louder & pack a punch. Worth the investment!

_________________

Back to top Go down

Re: Your YouTube Videos

Post  Dmanlamius on Sun Jun 21, 2009 10:31 pm

Brilliant! Very Happy

Back to top Go down

Re: Your YouTube Videos

Post  Dr.Sterni on Mon Jun 22, 2009 12:17 am

Wow!

I wish I could do that... The time will come^^

Back to top Go down

Re: Your YouTube Videos

Post  Fuzzy on Mon Jun 22, 2009 5:58 am

Thanks guys Very Happy

Yeah i've got 3 sets of D'addario 55-110's on the way from america, hope they'll get here this week..
I've had my current cheapo set on for about 1.5 months now, they're covered in dirt and they've been stretched to standard and back to drop c so many times now..

I've been playing 5 months now Smile although the first month doesnt really count because i only had a cheap $100 bass that - compared to my ibanez - was messed up somethin' fierce.

I tried adding more volume to my bass when i recorded that vid, but it just sounded worse.

p.s I only learnt that tab yesterday so i still need to get the timing down Wink

Back to top Go down

Re: Your YouTube Videos

Post  frozen.morale on Mon Jun 22, 2009 7:00 pm

danthewelshy wrote:http://www.youtube.com/watch?v=u6RijCc29Hs
POW - Graham Central Station

http://www.youtube.com/watch?v=PBNBu3g7DJ0
Blast - Marcus Miller

Got some other stuff on my channel check the link if you want to see other video's.
http://www.youtube.com/user/danthewelshy

Smaz i was watching your video's earlier without knowing it was you! You got some good stuff!!
Hey man, blast is awesome. Great job, haven't watched the other ones yet. :]

Back to top Go down

Re: Your YouTube Videos

Post  SuperMaximo93 on Mon Jun 22, 2009 7:25 pm

Fuzzydice45 wrote:Heres another one.. different tab this time, the one before was a slimmed down easier version.
I REALLY need those new strings, my current set sound so muddy..

http://www.dailymotion.com/fuzzydice45/video/16202588

Great job man! Very Happy

Back to top Go down

Re: Your YouTube Videos

Post  keizer on Mon Jun 22, 2009 9:20 pm

Hi Fuzzydice

Good job! I like it!

Did you find the tab for that on the net?

If so maybe you can put up a link to it?

Back to top Go down

Re: Your YouTube Videos

Post  Fuzzy on Tue Jun 23, 2009 6:01 am

It's a guitar pro tab, so you need to have guitar pro to view it.
Although I did edit a normal text tab that i got from 911tabs to mirror the guitar pro tab Smile


Code:
Chorus:

F|------------------------------------|
C|------------------------------------|
G|------------------------------------|
C|-8888888--5555555--0000000--0000000-|

Pre-Verse:
F|--------------------|
C|--------------------|
G|--------3-----------|
C|-0~---5---5-4-3-0-3-|

Verse:
F|----------------------------------|
C|----------------------------------|
G|-5--3---------------5-------------|
C|--00-006005003000-7---7-6-5-0-3-5-|

F|--------------------------------|
C|--------------------------------|
G|-5--3---------------3-----------|
C|--00-006005003000-5---5-4-3-0-3-|

Pre-Chorus:
F|-----------------------------------------------------------------|
C|-----------------------------------------------------------------|
G|-----------------------------------------------------5-----------|
C|-000-000-000-000-300000300000-000-000-000-000-3000-7---7-6-5-0-3-|

F|--------------------------------------------------------------------------|
C|--------------------------------------------------------------------------|
G|----------------------------------------------------5-----------5---------|
C|-000-000-000-000-300000300000-000-000-000-000-300-7---6-5-0-0-7---7-6-5-0-|

Chorus:
F|------------------------------------|-----|
C|------------------------------------|-----|
G|------------------------------------|-----|
C|-8888888--5555555--0000000--0000000-|-12\-|

Verse:
F|----------------------------------|
C|----------------------------------|
G|-5--3---------------5-------------|
C|--00-006005003000-7---7-6-5-0-3-5-|

F|--------------------------------|
C|--------------------------------|
G|-5--3---------------3-----------|
C|--00-006005003000-5---5-4-3-0-3-|

Pre-Chorus:
F|-----------------------------------------------------------------|
C|-----------------------------------------------------------------|
G|-----------------------------------------------------5-----------|
C|-000-000-000-000-300000300000-000-000-000-000-3000-7---7-6-5-0-3-|

F|--------------------------------------------------------------------------|
C|--------------------------------------------------------------------------|
G|----------------------------------------------------5-----------5---------|
C|-000-000-000-000-300000300000-000-000-000-000-300-7---6-5-0-0-7---7-6-5-0-|

Chorus:
F|-R-|----------------------------|
C|-E-|----------------------------|
G|-S-|----------------------------|
C|-T-|--5555555--0000000--0000000-|

Break:
F|----------------------------------|
C|----------------------------------|
G|----------------------------------|
C|-8-8888-8-8888-5-5555-8-8888-0~---|

Breakdown:
F|---------------------------------------------------------|
C|---------------------------------------------------------|
G|---------------------------------------------------------|
C|-888888888888--555555555555--000000000000--0000000000000-|

F|-----------------------------|
C|-----------------------------|
G|-----------------------------|
C|-8-8~---5-5~---0-0~---0-0~---|

Chorus:
F|------------------------------------|
C|------------------------------------|
G|------------------------------------|
C|-8888888--5555555--0000000--0000000-|

Outro:
F|-----------------------------|
C|-----------------------------|
G|-----------------------------|
C|-8-8~---5-5~---0-0~---0-0~---|

Back to top Go down

Re: Your YouTube Videos

Post  keizer on Tue Jun 23, 2009 6:13 am

Thanks ...... I am going to work on thisfor my next one Smile

Back to top Go down

Re: Your YouTube Videos

Post  uglymutt on Sun Jun 28, 2009 12:53 pm

Now i have to go and record some stuff and chuck it up, hopefully can do some collab with my guitarist friend and put it up on youtube. I have an idea to create a dmanlamius youtube group so that way we just chuck stuff on their, if so everything's in one place, your thoughts on this please.
Cheers

Back to top Go down

Re: Your YouTube Videos

Post  Fuzzy on Mon Jun 29, 2009 11:51 am

Now that my strings have stretched a bit and have lost a fair bit of their "new string clang" i might do another vid soon.. probably holy diver by killswitch (everyone knows holy diver, right?!)

Back to top Go down

Re: Your YouTube Videos

Post  Flycutter on Mon Jun 29, 2009 12:24 pm

So here's my first youtube video.

Back to top Go down

Re: Your YouTube Videos

Post  Garth on Mon Jun 29, 2009 5:32 pm

Sweet! Good job fly! I found it pretty funky Smile

Back to top Go down

Re: Your YouTube Videos

Post  danthewelshy on Tue Jun 30, 2009 8:32 pm



Recently got asked to do this, so couldn't refuse Smile

Back to top Go down

Re: Your YouTube Videos

Post  SuperMaximo93 on Fri Jul 03, 2009 7:25 pm

Here's a cover of Hysteria by Muse Smile Mistakes and sucky sound quality as usual (the line-in to my PC is mucked up) Razz

http://www.youtube.com/watch?v=BTdi35LXB0E

Back to top Go down

Re: Your YouTube Videos

Post  Dropthelines585 on Sat Jul 04, 2009 2:08 am

This is old and crappy, and this was after already playing for like 8 hours straight and that hippie with the dreads don't know crap about drums.

CLICKY HIPPIE
avatar
Dropthelines585
A resident.
A resident.


View user profile

Back to top Go down

Re: Your YouTube Videos

Post  Dropthelines585 on Mon Jul 13, 2009 1:26 am

avatar
Dropthelines585
A resident.
A resident.


View user profile

Back to top Go down

Re: Your YouTube Videos

Post  Sponsored content


Sponsored content


Back to top Go down

Page 2 of 8 Previous  1, 2, 3, 4, 5, 6, 7, 8  Next

View previous topic View next topic Back to top

- Similar topics

 
Permissions in this forum:
You cannot reply to topics in this forum