Free Bass guitar lessons

Post Your Own Lesson

Page 4 of 5 Previous  1, 2, 3, 4, 5  Next

Go down

Re: Post Your Own Lesson

Post  akyra on Sat Jan 09, 2010 9:43 am

Very helpfull thread guys Smile

Got the tabs for ... Agoraphobia by incubus? or Another know it all by chevelle?

Back to top Go down

Re: Post Your Own Lesson

Post  Pippynip on Wed Jan 13, 2010 12:08 am

No, but...

Code:

G-3-4-5-5-4-4-0----3--5--4--0----
D--------------------------------
A--------------------------------
E--------------------------------

'CAUSE I'D RATHER HAVE A BOWL OF COCO POPS

_________________


An opinion solicited does not equal one freely voiced.
avatar
Pippynip
A resident.
A resident.


View user profile

Back to top Go down

Re: Post Your Own Lesson

Post  akyra on Wed Jan 13, 2010 12:16 am

LULZ

Back to top Go down

Re: Post Your Own Lesson

Post  BlackF89 on Wed Jan 13, 2010 2:31 am

lmao

Back to top Go down

Re: Post Your Own Lesson

Post  Some freaky guy on Fri Jan 15, 2010 6:38 pm

My version of

Feel Good Inc
by Gorillaz

Really nice and simple, a cool warmup or exercise for beginners. Or for playing while posing. Smile

Tuning is Drop D (DADG)

Code:
G--------------------------------
D--------------------------------
A-----------3-2~~--------------
D-1--1-3-4--------6--6-9-8-4-1

DO NOT let the

Code:
D-1

at the end of the riff ring out!

Every once in a while you also play a slide at the end of the riff, making it

Code:
G--------------------------------------
D--------------------------------------
A-----------3-2~----------------------
D-1--1-3-4------6--6-9-8-4-1-1\13/

This seems to be played about every third time you play the main riff after playing it the second time you play the riff. So it should be played the second, fifth, eight, eleventh, etc. time you play the riff.
The slide goes back up the neck, but not all the way to the first fret.

Before the guitar solo you play

Code:
G-----------------
D-----------------
A-----------------
D-9-8-6-4-1-0-0

Make sure you don't let anything in the pre-solo riff ring out.

And that's it!


Last edited by Some freaky guy on Tue Jan 19, 2010 5:35 pm; edited 1 time in total
avatar
Some freaky guy
A resident.
A resident.


View user profile

Back to top Go down

Re: Post Your Own Lesson

Post  Cliff em' all on Fri Jan 15, 2010 9:21 pm

I haven't learnt it like this. Shocked
avatar
Cliff em' all
A resident.
A resident.


View user profile

Back to top Go down

Re: Post Your Own Lesson

Post  Some freaky guy on Sat Jan 16, 2010 5:06 pm

Cliff em' all wrote:I haven't learnt it like this. Shocked

It would scare the flying fuck out of me if you really DID learn it like this, because I figured this out myself.
avatar
Some freaky guy
A resident.
A resident.


View user profile

Back to top Go down

Re: Post Your Own Lesson

Post  Arteigon on Sat Jan 16, 2010 7:11 pm

Could someone please make a lesson on Roll Right by Rage against the machine, its an absolute killer and how much I noticed its pretty easy.

Back to top Go down

Re: Post Your Own Lesson

Post  Cliff em' all on Sun Jan 17, 2010 9:11 pm

Some freaky guy wrote:
Cliff em' all wrote:I haven't learnt it like this. Shocked

It would scare the flying fuck out of me if you really DID learn it like this, because I figured this out myself.

You tabbed it exactly the way I LEARNT IT.
avatar
Cliff em' all
A resident.
A resident.


View user profile

Back to top Go down

Re: Post Your Own Lesson

Post  Some freaky guy on Tue Jan 19, 2010 5:37 pm

Cliff em' all wrote:
Some freaky guy wrote:
Cliff em' all wrote:I haven't learnt it like this. Shocked

It would scare the flying fuck out of me if you really DID learn it like this, because I figured this out myself.

You tabbed it exactly the way I LEARNT IT.

Ok, that's creepy.
































STALKER!
avatar
Some freaky guy
A resident.
A resident.


View user profile

Back to top Go down

Gorillaz - Feel Good Inc.

Post  BassistMcKay on Thu Jan 28, 2010 7:03 pm



G|--------------|--------------||
D|--------------|--------------||
A|--------------|--------------||
E|-0--0-2-3-9-8---|-7-7-9-8-3-0-||

G|--------------|--------------------||
D|--------------|--------------------||
A|--------------|--------------------||
E|-0--0-2-3-9-8---|-7-7-9-8-3-0--/12~-||

And then at the Bridge

G|---------------|----------------||
D|---------------|----------------||
A|---------------|----------------||
E|-12-10--7--3-0-0-|-----------||

I may be wrong on how I play it but hey, it sounds decent.

Back to top Go down

Re: Post Your Own Lesson

Post  Thor on Wed Feb 17, 2010 11:28 pm

Lady Gaga- Poker face

G|--------------------------------|
D|-6-6-------------6-6------------|
A|---------6-6---------7--9-9-----|
E|-----4-4-----4-4------7-----2-2-|

Just for fun Smile

Back to top Go down

Post Your Own Lesson

Post  willba on Thu Feb 18, 2010 11:21 am

Beastie Boys - No sleep til' Brooklyn

G[--------------------]
D[--------------------]
A[--------------------]
E[-0-0---3-5---7-3-]
avatar
willba
A resident.
A resident.


View user profile

Back to top Go down

Re: Post Your Own Lesson

Post  Cliff em' all on Thu Feb 18, 2010 7:02 pm

That's fuckin long! Razz
avatar
Cliff em' all
A resident.
A resident.


View user profile

Back to top Go down

Re: Post Your Own Lesson

Post  Some freaky guy on Thu Mar 04, 2010 2:42 pm

Stylo
By Gorillaz
From their coming album "Plastic Beach" and the single "Stylo"

Tuning: Standard EADG
Effects: A little delay and something making it sound synthish.

Yes, it's a synthish bass. But it's a bass. And I tabbed it. Very Happy

Main riff:

Code:
E---------------------------------------
A-1--3-3---1--3-3---1--3-3--------------
D------------------------------------3-1
G-------------------------------1-0-----

Chorus:

Code:
E-----------------------------------
A-----------------------------------
D-1--3-3---1--3-3---1--3-3-------3-1
G----------------------------1-0----


One of the first tabs in the world for this song, guys!
Enjoy, fellow Gorillaz fans Very Happy

Video (the bassist is the driver (yes, the animated one)):
avatar
Some freaky guy
A resident.
A resident.


View user profile

Back to top Go down

Re: Post Your Own Lesson

Post  akyra on Thu Mar 04, 2010 3:15 pm

I think it sounds better for Feel Good inc main verse to be played like..

G|----------------|---------------
D|----------------|---------------
A|-----------3-2-|-0--0-3-2----
E|-0--0-3-2-----|-----------3-0


Plus its easier XD

Back to top Go down

Re: Post Your Own Lesson

Post  Some freaky guy on Thu Mar 04, 2010 3:43 pm

akyra wrote:I think it sounds better for Feel Good inc main verse to be played like..

G|----------------|---------------
D|----------------|---------------
A|-----------3-2-|-0--0-3-2----
E|-0--0-3-2-----|-----------3-0


Plus its easier XD

It should be

G|----------------|---------------
D|----------------|---------------
A|-----------3-2-|-0--0-3-2----
E|-0--0-2-3-----|-----------3-0

The other one sounds just plain wrong. And Murdoc said in an interview that the bass he used for Feel Good Inc is tuned to Drop D (DADG), so even though it SOUNDS about right, it's wrong. The first note would have to be fret number -1 on a standard E-string. The version you posted is the one I play when I don't have the time to tune to DADG, so I definitely approve, even though it's not correct..
avatar
Some freaky guy
A resident.
A resident.


View user profile

Back to top Go down

Re: Post Your Own Lesson

Post  akyra on Thu Mar 04, 2010 8:31 pm

ops yeah sorry.. mistype hahaha

Also didnt say it was correct... I just learned it that way from Dmans lessons.

Back to top Go down

Re: Post Your Own Lesson

Post  Some freaky guy on Sat Mar 06, 2010 6:27 pm

DMan has a lesson of it? Without me knowing?

affraid
avatar
Some freaky guy
A resident.
A resident.


View user profile

Back to top Go down

Re: Post Your Own Lesson

Post  akyra on Sat Mar 06, 2010 6:33 pm

Yeah Thats where I learnt it im sure.

EDIT: Oh wait no.... might have been Smaz that taught me actually lol

Back to top Go down

Re: Post Your Own Lesson

Post  Cliff em' all on Sat Mar 06, 2010 10:23 pm

I learnt it from bassmasta Exclamation
avatar
Cliff em' all
A resident.
A resident.


View user profile

Back to top Go down

Re: Post Your Own Lesson

Post  DavidM96 on Fri Mar 12, 2010 12:36 am

this is a quick funk line i whiped up after watching the "play that funky music" video of Dmans


here it is. Tell me what you think

|------------------------------------------------|
|--------------5-7--5-8------------------------|
|-----7---0-5----------------------------------|
|--5--------------------------------------------|

IMPORTANT: the open "a" is played quicker then the rest but its supposed to be fast.
avatar
DavidM96
A resident.
A resident.


View user profile

Back to top Go down

Re: Post Your Own Lesson

Post  akyra on Fri Mar 12, 2010 8:12 am

I like it, but i feel like the last note makes me want to add more lol.. does that make sense. You should post a recording of you playing Smile

Back to top Go down

Re: Post Your Own Lesson

Post  Some freaky guy on Fri Mar 12, 2010 11:19 am

I like it, but you should try to make it start and end with the same note, it gives a more "complete" feel to the riff.

Take this one, for example.

Code:
E-3--------
A---5------
D------3h5
G----------

It starts and ends with an... F#, I think (not sure Razz). You can repeat it, and it sounds like a flowing, neverending riff. Your riff has a somewhat sudden end to it. Try changing it to have it end with same note as the one you started with.
avatar
Some freaky guy
A resident.
A resident.


View user profile

Back to top Go down

Re: Post Your Own Lesson

Post  akyra on Fri Mar 12, 2010 4:26 pm

Yes thats what i thought Smile I knew I wasnt crazy

Back to top Go down

Re: Post Your Own Lesson

Post  Sponsored content


Sponsored content


Back to top Go down

Page 4 of 5 Previous  1, 2, 3, 4, 5  Next

Back to top

- Similar topics

 
Permissions in this forum:
You cannot reply to topics in this forum